0
SECTION
2
HEADER
9
$INSUNITS
70
4
9
$ACADVER
1
AC1014
9
$HANDSEED
5
FFFF
0
ENDSEC
0
SECTION
2
TABLES
0
TABLE
2
VPORT
5
8
100
AcDbSymbolTable
0
ENDTAB
0
TABLE
2
LTYPE
5
5
100
AcDbSymbolTable
0
LTYPE
5
14
100
AcDbSymbolTableRecord
100
AcDbLinetypeTableRecord
2
BYBLOCK
70
0
0
LTYPE
5
15
100
AcDbSymbolTableRecord
100
AcDbLinetypeTableRecord
2
BYLAYER
70
0
0
LTYPE
5
16
100
AcDbSymbolTableRecord
100
AcDbLinetypeTableRecord
2
DASHED
70
0
3
Dashed __ __ __ __ __ __ __ __ __ __ __ __ __ _
72
65
73
2
40
0.75
49
0.5
74
0
49
-0.25
74
0
0
ENDTAB
0
TABLE
2
LAYER
5
2
100
AcDbSymbolTable
70
2
0
LAYER
5
50
100
AcDbSymbolTableRecord
100
AcDbLayerTableRecord
2
0
70
0
62
7
6
CONTINUOUS
0
ENDTAB
0
TABLE
2
STYLE
5
3
100
AcDbSymbolTable
70
1
0
STYLE
5
11
100
AcDbSymbolTableRecord
100
AcDbTextStyleTableRecord
2
STANDARD
70
0
0
ENDTAB
0
TABLE
2
VIEW
5
6
100
AcDbSymbolTable
70
0
0
ENDTAB
0
TABLE
2
UCS
5
7
100
AcDbSymbolTable
70
0
0
ENDTAB
0
TABLE
2
APPID
5
9
100
AcDbSymbolTable
70
2
0
APPID
5
12
100
AcDbSymbolTableRecord
100
AcDbRegAppTableRecord
2
ACAD
70
0
0
ENDTAB
0
TABLE
2
DIMSTYLE
5
A
100
AcDbSymbolTable
70
1
0
ENDTAB
0
TABLE
2
BLOCK_RECORD
5
1
100
AcDbSymbolTable
70
1
0
BLOCK_RECORD
5
1F
100
AcDbSymbolTableRecord
100
AcDbBlockTableRecord
2
*MODEL_SPACE
0
BLOCK_RECORD
5
1B
100
AcDbSymbolTableRecord
100
AcDbBlockTableRecord
2
*PAPER_SPACE
0
ENDTAB
0
ENDSEC
0
SECTION
2
BLOCKS
0
BLOCK
5
20
100
AcDbEntity
100
AcDbBlockBegin
2
*MODEL_SPACE
0
ENDBLK
5
21
100
AcDbEntity
100
AcDbBlockEnd
0
BLOCK
5
1C
100
AcDbEntity
100
AcDbBlockBegin
2
*PAPER_SPACE
0
ENDBLK
5
1D
100
AcDbEntity
100
AcDbBlockEnd
0
ENDSEC
0
SECTION
2
ENTITIES
0
POINT
5
100
100
AcDbEntity
8
0
100
AcDbPoint
10
0
20
0
30
0
0
POINT
5
101
100
AcDbEntity
8
0
100
AcDbPoint
10
0
20
0
30
0
0
POINT
5
102
100
AcDbEntity
8
0
100
AcDbPoint
10
80.400000000000006
20
1.2711137632955757e-31
30
0
0
POINT
5
103
100
AcDbEntity
8
0
100
AcDbPoint
10
7.7037197775489434e-32
20
-50.399999999999999
30
0
0
POINT
5
104
100
AcDbEntity
8
0
100
AcDbPoint
10
-3.8653701925107535
20
-89.284977908386409
30
0
0
POINT
5
105
100
AcDbEntity
8
0
100
AcDbPoint
10
76.534629807489253
20
-89.284977908386409
30
0
0
POINT
5
106
100
AcDbEntity
8
0
100
AcDbPoint
10
-3.8653701925107486
20
-139.6849779083864
30
0
0
LINE
5
107
100
AcDbEntity
8
0
100
AcDbLine
10
-3.8653701925107486
20
-135.68497790838643
30
0
11
-3.8653701925107544
21
-93.284977908386409
31
0
0
LINE
5
108
100
AcDbEntity
8
0
100
AcDbLine
10
71.534629807489239
20
-139.68497790838643
30
0
11
0.13462980748924394
21
-139.68497790838643
31
0
0
LINE
5
109
100
AcDbEntity
8
0
100
AcDbLine
10
76.534629807489253
20
-94.284977908386409
30
0
11
76.534629807489253
21
-134.68497790838643
31
0
0
LWPOLYLINE
5
110
100
AcDbEntity
8
0
100
AcDbPolyline
90
8
70
1
43
0.0
10
78.534629807489267
20
-94.284977908386409
42
0.41421356237309503
10
71.534629807489267
20
-87.284977908386423
10
1.1346298074892469
20
-87.284977908386423
42
0.41421356237309503
10
-5.8653701925107526
20
-94.284977908386409
10
-5.8653701925107482
20
-134.68497790838643
42
0.4142135623730957
10
1.1346298074892402
20
-141.68497790838643
10
71.534629807489239
20
-141.6849779083864
42
0.4142135623730932
10
78.534629807489253
20
-134.68497790838649
0
LWPOLYLINE
5
111
100
AcDbEntity
8
0
100
AcDbPolyline
90
8
70
1
43
0.0
10
72.534629807489253
20
-94.284977908386409
42
0.41421356237309503
10
71.534629807489267
20
-93.284977908386409
10
1.1346298074892469
20
-93.284977908386409
42
0.41421356237309503
10
0.13462980748924713
20
-94.284977908386409
10
0.13462980748925157
20
-134.68497790838643
42
0.41421356237310014
10
1.1346298074892402
20
-135.68497790838643
10
71.534629807489239
20
-135.68497790838643
42
0.41421356237309243
10
72.534629807489239
20
-134.68497790838643
0
LINE
5
112
100
AcDbEntity
8
0
100
AcDbLine
10
34.234629807489256
20
-93.284977908386409
30
0
11
34.234629807489256
21
-87.284977908386423
31
0
0
LINE
5
113
100
AcDbEntity
8
0
100
AcDbLine
10
38.434629807489252
20
-93.284977908386409
30
0
11
38.434629807489252
21
-89.284977908386409
31
0
0
LINE
5
114
100
AcDbEntity
8
0
100
AcDbLine
10
38.434629807489252
20
-89.284977908386409
30
0
11
38.434629807489252
21
-87.284977908386423
31
0
0
LINE
5
115
100
AcDbEntity
8
0
100
AcDbLine
10
0.13462980748924602
20
-89.284977908386409
30
0
11
34.234629807489256
21
-89.284977908386409
31
0
0
LINE
5
116
100
AcDbEntity
8
0
100
AcDbLine
10
38.434629807489252
20
-89.284977908386409
30
0
11
71.534629807489267
21
-89.284977908386409
31
0
0
LWPOLYLINE
5
117
100
AcDbEntity
8
0
100
AcDbPolyline
90
8
70
1
43
0.0
10
82.600000000000023
20
-4.9999999999999991
42
0.41421356237309531
10
75.40000000000002
20
2.199999999999998
10
4.9999999999999982
20
2.2000000000000011
42
0.4142135623730957
10
-2.2000000000000011
20
-5
10
-2.1999999999999966
20
-45.399999999999999
42
0.4142135623730952
10
4.9999999999999911
20
-52.599999999999994
10
75.400000000000006
20
-52.600000000000009
42
0.41421356237309542
10
82.600000000000023
20
-45.399999999999999
0
LWPOLYLINE
5
118
100
AcDbEntity
8
0
100
AcDbPolyline
90
8
70
1
43
0.0
10
84.600000000000009
20
-4.9999999999999991
42
0.4142135623730952
10
75.40000000000002
20
4.2000000000000055
10
4.9999999999999982
20
4.2000000000000002
42
0.41421356237309559
10
-4.1999999999999993
20
-5.0000000000000089
10
-4.1999999999999957
20
-45.399999999999999
42
0.41421356237309515
10
4.9999999999999911
20
-54.600000000000001
10
75.400000000000006
20
-54.600000000000009
42
0.41421356237309537
10
84.600000000000009
20
-45.399999999999999
0
LINE
5
119
100
AcDbEntity
8
0
100
AcDbLine
10
40.200000000000003
20
4.2000000000000028
30
0
11
40.200000000000003
21
2.1999999999999993
31
0
6
DASHED
0
LINE
5
120
100
AcDbEntity
8
0
100
AcDbLine
10
42.300000000000004
20
4.2000000000000028
30
0
11
42.300000000000004
21
2.1999999999999993
31
0
0
LINE
5
121
100
AcDbEntity
8
0
100
AcDbLine
10
38.100000000000009
20
4.2000000000000028
30
0
11
38.100000000000009
21
2.1999999999999993
31
0
0
CIRCLE
5
122
100
AcDbEntity
8
0
100
AcDbCircle
10
146.80492161570814
20
-98.119214705091977
30
0
40
4.5
210
0
220
0
230
1
0
CIRCLE
5
123
100
AcDbEntity
8
0
100
AcDbCircle
10
146.80492161570814
20
-98.119214705091977
30
0
40
5.3000000000000007
210
0
220
0
230
1
0
CIRCLE
5
124
100
AcDbEntity
8
0
100
AcDbCircle
10
146.80492161570814
20
-98.119214705091977
30
0
40
1.8500000000000003
210
0
220
0
230
1
0
LINE
5
125
100
AcDbEntity
8
0
100
AcDbLine
10
71.534629807489267
20
-89.284977908386409
30
0
11
72.534629807489239
21
-89.284977908386409
31
0
0
LINE
5
126
100
AcDbEntity
8
0
100
AcDbLine
10
76.534629807489253
20
-93.284977908386395
30
0
11
76.534629807489253
21
-94.284977908386409
31
0
0
ARC
5
127
100
AcDbEntity
8
0
100
AcDbCircle
10
72.534629807489225
20
-93.284977908386452
30
0
40
4.0000000000000391
210
0
220
-0
230
1
100
AcDbArc
50
0
51
89.999999999999801
0
LINE
5
128
100
AcDbEntity
8
0
100
AcDbLine
10
71.534629807489239
20
-139.68497790838643
30
0
11
72.564983315422737
21
-139.67451719849259
31
0
0
LINE
5
129
100
AcDbEntity
8
0
100
AcDbLine
10
76.524169097595419
20
-135.71533141631991
30
0
11
76.534629807489253
21
-134.68497790838643
31
0
0
ARC
5
130
100
AcDbEntity
8
0
100
AcDbCircle
10
72.524375229982084
20
-135.67472333087926
30
0
40
4.000000000000056
210
0
220
0
230
1
100
AcDbArc
50
270.58167796938733
51
359.41832203061284
0
ARC
5
131
100
AcDbEntity
8
0
100
AcDbCircle
10
0.1346298074892735
20
-135.6849779083864
30
0
40
4.0000000000000222
210
0
220
0
230
1
100
AcDbArc
50
180
51
269.9999999999996
0
ARC
5
132
100
AcDbEntity
8
0
100
AcDbCircle
10
0.13462980748926712
20
-93.284977908386423
30
0
40
4.0000000000000213
210
0
220
0
230
1
100
AcDbArc
50
90.000000000000313
51
180
0
ENDSEC
0
SECTION
2
OBJECTS
0
DICTIONARY
5
C
100
AcDbDictionary
3
ACAD_GROUP
350
D
3
ACAD_MLINESTYLE
350
17
0
DICTIONARY
5
D
100
AcDbDictionary
0
DICTIONARY
5
1A
330
C
100
AcDbDictionary
0
DICTIONARY
5
17
100
AcDbDictionary
0
ENDSEC
0
EOF
